  0
SECTION
  2
HEADER
  9
$ACADVER
  1
AC1015
  9
$ACADMAINTVER
 70
     6
  9
$DWGCODEPAGE
  3
ANSI_1254
  9
$INSBASE
 10
0.0
 20
0.0
 30
0.0
  9
$EXTMIN
 10
0.0
 20
0.0
 30
0.0
  9
$EXTMAX
 10
279.4
 20
215.9
 30
0.0
  9
$LIMMIN
 10
0.0
 20
0.0
  9
$LIMMAX
 10
279.4
 20
215.9
  9
$ORTHOMODE
 70
     0
  9
$REGENMODE
 70
     1
  9
$FILLMODE
 70
     1
  9
$QTEXTMODE
 70
     0
  9
$MIRRTEXT
 70
     1
  9
$LTSCALE
 40
1.0
  9
$ATTMODE
 70
     1
  9
$TEXTSIZE
 40
3.5
  9
$TRACEWID
 40
1.0
  9
$TEXTSTYLE
  7
Standard
  9
$CLAYER
  8
0
  9
$CELTYPE
  6
ByLayer
  9
$CECOLOR
 62
   256
  9
$CELTSCALE
 40
1.0
  9
$DISPSILH
 70
     0
  9
$DIMSCALE
 40
1.0
  9
$DIMASZ
 40
3.5
  9
$DIMEXO
 40
1.0
  9
$DIMDLI
 40
3.75
  9
$DIMRND
 40
0.0
  9
$DIMDLE
 40
0.0
  9
$DIMEXE
 40
1.0
  9
$DIMTP
 40
0.0
  9
$DIMTM
 40
0.0
  9
$DIMTXT
 40
3.5
  9
$DIMCEN
 40
2.5
  9
$DIMTSZ
 40
0.0
  9
$DIMTOL
 70
     0
  9
$DIMLIM
 70
     0
  9
$DIMTIH
 70
     1
  9
$DIMTOH
 70
     1
  9
$DIMSE1
 70
     0
  9
$DIMSE2
 70
     0
  9
$DIMTAD
 70
     1
  9
$DIMZIN
 70
     0
  9
$DIMBLK
  1

  9
$DIMASO
 70
     1
  9
$DIMSHO
 70
     1
  9
$DIMPOST
  1

  9
$DIMAPOST
  1

  9
$DIMALT
 70
     0
  9
$DIMALTD
 70
     3
  9
$DIMALTF
 40
0.0393700787
  9
$DIMLFAC
 40
1.0
  9
$DIMTOFL
 70
     1
  9
$DIMTVP
 40
0.0
  9
$DIMTIX
 70
     0
  9
$DIMSOXD
 70
     0
  9
$DIMSAH
 70
     0
  9
$DIMBLK1
  1

  9
$DIMBLK2
  1

  9
$DIMSTYLE
  2
ISO-25
  9
$DIMCLRD
 70
     0
  9
$DIMCLRE
 70
     0
  9
$DIMCLRT
 70
     0
  9
$DIMTFAC
 40
1.0
  9
$DIMGAP
 40
1.524
  9
$DIMJUST
 70
     0
  9
$DIMSD1
 70
     0
  9
$DIMSD2
 70
     0
  9
$DIMTOLJ
 70
     0
  9
$DIMTZIN
 70
     0
  9
$DIMALTZ
 70
     0
  9
$DIMALTTZ
 70
     0
  9
$DIMUPT
 70
     0
  9
$DIMDEC
 70
     2
  9
$DIMTDEC
 70
     2
  9
$DIMALTU
 70
     2
  9
$DIMALTTD
 70
     3
  9
$DIMTXSTY
  7
Standard
  9
$DIMAUNIT
 70
     0
  9
$DIMADEC
 70
     2
  9
$DIMALTRND
 40
0.0
  9
$DIMAZIN
 70
     0
  9
$DIMDSEP
 70
    44
  9
$DIMATFIT
 70
     3
  9
$DIMFRAC
 70
     0
  9
$DIMLDRBLK
  1

  9
$DIMLUNIT
 70
     2
  9
$DIMLWD
 70
    -2
  9
$DIMLWE
 70
    -2
  9
$DIMTMOVE
 70
     0
  9
$LUNITS
 70
     2
  9
$LUPREC
 70
     2
  9
$SKETCHINC
 40
1.0
  9
$FILLETRAD
 40
10.0
  9
$AUNITS
 70
     0
  9
$AUPREC
 70
     2
  9
$MENU
  1
.
  9
$ELEVATION
 40
0.0
  9
$PELEVATION
 40
0.0
  9
$THICKNESS
 40
0.0
  9
$LIMCHECK
 70
     0
  9
$CHAMFERA
 40
0.0
  9
$CHAMFERB
 40
0.0
  9
$CHAMFERC
 40
0.0
  9
$CHAMFERD
 40
0.0
  9
$SKPOLY
 70
     0
  9
$TDCREATE
 40
2458985.69985022
  9
$TDUCREATE
 40
2458985.57485022
  9
$TDUPDATE
 40
2458985.699850521
  9
$TDUUPDATE
 40
2458985.574850521
  9
$TDINDWG
 40
0.0000000116
  9
$TDUSRTIMER
 40
0.0000000116
  9
$USRTIMER
 70
     1
  9
$ANGBASE
 50
0.0
  9
$ANGDIR
 70
     0
  9
$PDMODE
 70
     0
  9
$PDSIZE
 40
-1.0
  9
$PLINEWID
 40
0.0
  9
$SPLFRAME
 70
     0
  9
$SPLINETYPE
 70
     6
  9
$SPLINESEGS
 70
     8
  9
$HANDSEED
  5
F0
  9
$SURFTAB1
 70
     6
  9
$SURFTAB2
 70
     6
  9
$SURFTYPE
 70
     6
  9
$SURFU
 70
     6
  9
$SURFV
 70
     6
  9
$UCSBASE
  2

  9
$UCSNAME
  2

  9
$UCSORG
 10
0.0
 20
0.0
 30
0.0
  9
$UCSXDIR
 10
1.0
 20
0.0
 30
0.0
  9
$UCSYDIR
 10
0.0
 20
1.0
 30
0.0
  9
$UCSORTHOREF
  2

  9
$UCSORTHOVIEW
 70
     0
  9
$UCSORGTOP
 10
0.0
 20
0.0
 30
0.0
  9
$UCSORGBOTTOM
 10
0.0
 20
0.0
 30
0.0
  9
$UCSORGLEFT
 10
0.0
 20
0.0
 30
0.0
  9
$UCSORGRIGHT
 10
0.0
 20
0.0
 30
0.0
  9
$UCSORGFRONT
 10
0.0
 20
0.0
 30
0.0
  9
$UCSORGBACK
 10
0.0
 20
0.0
 30
0.0
  9
$PUCSBASE
  2

  9
$PUCSNAME
  2

  9
$PUCSORG
 10
0.0
 20
0.0
 30
0.0
  9
$PUCSXDIR
 10
1.0
 20
0.0
 30
0.0
  9
$PUCSYDIR
 10
0.0
 20
1.0
 30
0.0
  9
$PUCSORTHOREF
  2

  9
$PUCSORTHOVIEW
 70
     0
  9
$PUCSORGTOP
 10
0.0
 20
0.0
 30
0.0
  9
$PUCSORGBOTTOM
 10
0.0
 20
0.0
 30
0.0
  9
$PUCSORGLEFT
 10
0.0
 20
0.0
 30
0.0
  9
$PUCSORGRIGHT
 10
0.0
 20
0.0
 30
0.0
  9
$PUCSORGFRONT
 10
0.0
 20
0.0
 30
0.0
  9
$PUCSORGBACK
 10
0.0
 20
0.0
 30
0.0
  9
$USERI1
 70
     0
  9
$USERI2
 70
     0
  9
$USERI3
 70
     0
  9
$USERI4
 70
     0
  9
$USERI5
 70
     0
  9
$USERR1
 40
0.0
  9
$USERR2
 40
0.0
  9
$USERR3
 40
0.0
  9
$USERR4
 40
0.0
  9
$USERR5
 40
0.0
  9
$WORLDVIEW
 70
     1
  9
$SHADEDGE
 70
     3
  9
$SHADEDIF
 70
    70
  9
$TILEMODE
 70
     1
  9
$MAXACTVP
 70
    64
  9
$PINSBASE
 10
0.0
 20
0.0
 30
0.0
  9
$PLIMCHECK
 70
     0
  9
$PEXTMIN
 10
1.0000000000E+20
 20
1.0000000000E+20
 30
1.0000000000E+20
  9
$PEXTMAX
 10
-1.0000000000E+20
 20
-1.0000000000E+20
 30
-1.0000000000E+20
  9
$PLIMMIN
 10
0.0
 20
0.0
  9
$PLIMMAX
 10
420.0
 20
297.0
  9
$UNITMODE
 70
     0
  9
$VISRETAIN
 70
     1
  9
$PLINEGEN
 70
     0
  9
$PSLTSCALE
 70
     1
  9
$TREEDEPTH
 70
  3020
  9
$CMLSTYLE
  2
Standard
  9
$CMLJUST
 70
     0
  9
$CMLSCALE
 40
20.0
  9
$PROXYGRAPHICS
 70
     1
  9
$MEASUREMENT
 70
     1
  9
$CELWEIGHT
370
    -1
  9
$ENDCAPS
280
     0
  9
$JOINSTYLE
280
     0
  9
$LWDISPLAY
290
     1
  9
$INSUNITS
 70
     4
  9
$HYPERLINKBASE
  1

  9
$STYLESHEET
  1

  9
$XEDIT
290
     1
  9
$CEPSNTYPE
380
     0
  9
$PSTYLEMODE
290
     1
  9
$FINGERPRINTGUID
  2
{bcf79b45-d4ee-4545-81f2-496e28daa9fe}
  9
$VERSIONGUID
  2
{FAEB1C32-E019-11D5-929B-00C0DF256EC4}
  9
$EXTNAMES
290
     1
  9
$PSVPSCALE
 40
0.0
  9
$OLESTARTUP
290
     0
  0
ENDSEC
  0
SECTION
  2
CLASSES
  0
CLASS
  1
ACDBDICTIONARYWDFLT
  2
AcDbDictionaryWithDefault
  3
ObjectDBX Classes
 90
        0
280
     0
281
     0
  0
CLASS
  1
VISUALSTYLE
  2
AcDbVisualStyle
  3
ObjectDBX Classes
 90
     4095
280
     0
281
     0
  0
CLASS
  1
MATERIAL
  2
AcDbMaterial
  3
ObjectDBX Classes
 90
     1153
280
     0
281
     0
  0
CLASS
  1
SCALE
  2
AcDbScale
  3
ObjectDBX Classes
 90
     1153
280
     0
281
     0
  0
CLASS
  1
TABLESTYLE
  2
AcDbTableStyle
  3
ObjectDBX Classes
 90
     4095
280
     0
281
     0
  0
CLASS
  1
MLEADERSTYLE
  2
AcDbMLeaderStyle
  3
ACDB_MLEADERSTYLE_CLASS
 90
     4095
280
     0
281
     0
  0
CLASS
  1
SUN
  2
AcDbSun
  3
SCENEOE
 90
     1153
280
     0
281
     0
  0
CLASS
  1
ACDBPLACEHOLDER
  2
AcDbPlaceHolder
  3
ObjectDBX Classes
 90
        0
280
     0
281
     0
  0
CLASS
  1
LAYOUT
  2
AcDbLayout
  3
ObjectDBX Classes
 90
        0
280
     0
281
     0
  0
ENDSEC
  0
SECTION
  2
TABLES
  0
TABLE
  2
VPORT
  5
8
330
0
100
AcDbSymbolTable
 70
     1
  0
VPORT
  5
29
330
8
100
AcDbSymbolTableRecord
100
AcDbViewportTableRecord
  2
*Active
 70
     0
 10
0.0
 20
0.0
 11
1.0
 21
1.0
 12
139.7
 22
107.95
 13
0.0
 23
0.0
 14
10.0
 24
10.0
 15
10.0
 25
10.0
 16
0.0
 26
0.0
 36
1.0
 17
0.0
 27
0.0
 37
0.0
 40
215.9
 41
1.2941176471
 42
50.0
 43
0.0
 44
0.0
 50
0.0
 51
0.0
 71
     0
 72
  2000
 73
     1
 74
     3
 75
     0
 76
     0
 77
     0
 78
     0
281
     0
 65
     1
110
0.0
120
0.0
130
0.0
111
1.0
121
0.0
131
0.0
112
0.0
122
1.0
132
0.0
 79
     0
146
0.0
  0
ENDTAB
  0
TABLE
  2
LTYPE
  5
5
330
0
100
AcDbSymbolTable
 70
     6
  0
LTYPE
  5
14
330
5
100
AcDbSymbolTableRecord
100
AcDbLinetypeTableRecord
  2
ByBlock
 70
     0
  3

 72
    65
 73
     0
 40
0.0
  0
LTYPE
  5
15
330
5
100
AcDbSymbolTableRecord
100
AcDbLinetypeTableRecord
  2
ByLayer
 70
     0
  3

 72
    65
 73
     0
 40
0.0
  0
LTYPE
  5
16
330
5
100
AcDbSymbolTableRecord
100
AcDbLinetypeTableRecord
  2
Continuous
 70
     0
  3
Solid line
 72
    65
 73
     0
 40
0.0
  0
LTYPE
  5
6E
330
5
100
AcDbSymbolTableRecord
100
AcDbLinetypeTableRecord
  2
HIDDEN
 70
     0
  3
Hidden __ __ __ __ __ __ __ __ __ __ __ __ __ __
 72
    65
 73
     2
 40
1.905
 49
1.27
 74
     0
 49
-0.635
 74
     0
  0
LTYPE
  5
6F
330
5
100
AcDbSymbolTableRecord
100
AcDbLinetypeTableRecord
  2
PHANTOM
 70
     0
  3
Phantom ______  __  __  ______  __  __  ______
 72
    65
 73
     6
 40
12.7
 49
6.35
 74
     0
 49
-1.27
 74
     0
 49
1.27
 74
     0
 49
-1.27
 74
     0
 49
1.27
 74
     0
 49
-1.27
 74
     0
  0
LTYPE
  5
70
330
5
100
AcDbSymbolTableRecord
100
AcDbLinetypeTableRecord
  2
CENTER
 70
     0
  3
Center ____ _ ____ _ ____ _ ____ _ ____ _ ____
 72
    65
 73
     4
 40
10.16
 49
6.35
 74
     0
 49
-1.27
 74
     0
 49
1.27
 74
     0
 49
-1.27
 74
     0
  0
LTYPE
  5
71
330
5
100
AcDbSymbolTableRecord
100
AcDbLinetypeTableRecord
  2
CENTERX2
 70
     0
  3
Center (2x) ________  __  ________  __  _____
 72
    65
 73
     4
 40
20.32
 49
12.7
 74
     0
 49
-2.54
 74
     0
 49
2.54
 74
     0
 49
-2.54
 74
     0
  0
LTYPE
  5
72
330
5
100
AcDbSymbolTableRecord
100
AcDbLinetypeTableRecord
  2
DOT2
 70
     0
  3
Dot (.5x) ........................................
 72
    65
 73
     2
 40
0.635
 49
0.0
 74
     0
 49
-0.635
 74
     0
  0
ENDTAB
  0
TABLE
  2
LAYER
  5
2
330
0
100
AcDbSymbolTable
 70
    17
  0
LAYER
  5
10
330
2
100
AcDbSymbolTableRecord
100
AcDbLayerTableRecord
  2
0
 70
     0
 62
     7
  6
Continuous
370
    -3
390
F
  0
LAYER
  5
73
330
2
100
AcDbSymbolTableRecord
100
AcDbLayerTableRecord
  2
FORMAT
 70
     0
 62
     7
  6
Continuous
370
    -3
390
F
  0
LAYER
  5
74
330
2
100
AcDbSymbolTableRecord
100
AcDbLayerTableRecord
  2
YARDIMCI_GEOMETRI
 70
     0
 62
    -6
  6
Continuous
290
     0
370
    -3
390
F
  0
LAYER
  5
75
330
2
100
AcDbSymbolTableRecord
100
AcDbLayerTableRecord
  2
SAYFA_CERCEVESI
 70
     0
 62
     7
  6
Continuous
370
    25
390
F
  0
LAYER
  5
76
330
2
100
AcDbSymbolTableRecord
100
AcDbLayerTableRecord
  2
ANTET
 70
     0
 62
     7
  6
Continuous
370
    -3
390
F
  0
LAYER
  5
77
330
2
100
AcDbSymbolTableRecord
100
AcDbLayerTableRecord
  2
OLCU
 70
     0
 62
   150
  6
Continuous
370
    -3
390
F
  0
LAYER
  5
78
330
2
100
AcDbSymbolTableRecord
100
AcDbLayerTableRecord
  2
METIN
 70
     0
 62
    96
  6
Continuous
370
    -3
390
F
  0
LAYER
  5
79
330
2
100
AcDbSymbolTableRecord
100
AcDbLayerTableRecord
  2
BALON
 70
     0
 62
     5
  6
Continuous
370
    -3
390
F
  0
LAYER
  5
7A
330
2
100
AcDbSymbolTableRecord
100
AcDbLayerTableRecord
  2
VURGU
 70
     0
 62
     7
  6
Continuous
370
    -3
390
F
  0
LAYER
  5
7B
330
2
100
AcDbSymbolTableRecord
100
AcDbLayerTableRecord
  2
SILIK
 70
     0
 62
     7
  6
Continuous
370
    -3
390
F
  0
LAYER
  5
7C
330
2
100
AcDbSymbolTableRecord
100
AcDbLayerTableRecord
  2
MODEL
 70
     0
 62
     7
  6
Continuous
370
    -3
390
F
  0
LAYER
  5
7D
330
2
100
AcDbSymbolTableRecord
100
AcDbLayerTableRecord
  2
DETAYLANDıRMA
 70
     0
 62
   190
  6
Continuous
370
    -3
390
F
  0
LAYER
  5
7E
330
2
100
AcDbSymbolTableRecord
100
AcDbLayerTableRecord
  2
TOLERANS
 70
     0
 62
   230
  6
Continuous
370
    -3
390
F
  0
LAYER
  5
7F
330
2
100
AcDbSymbolTableRecord
100
AcDbLayerTableRecord
  2
MERKEZ_CIZGILERI
 70
     0
 62
    30
  6
Continuous
370
    -3
390
F
  0
LAYER
  5
80
330
2
100
AcDbSymbolTableRecord
100
AcDbLayerTableRecord
  2
KESIT-DETAY_CIZGILERI
 70
     0
 62
     7
  6
Continuous
370
    -3
390
F
  0
LAYER
  5
81
330
2
100
AcDbSymbolTableRecord
100
AcDbLayerTableRecord
  2
\U+041E\U+0421\U+0415\U+0412\U+042B\U+0415
 70
     0
 62
     7
  6
Continuous
370
    -3
390
F
  0
LAYER
  5
82
330
2
100
AcDbSymbolTableRecord
100
AcDbLayerTableRecord
  2
\U+0412\U+041E\U+0414\U+042F\U+041D\U+042B\U+0415_\U+0417\U+041D\U+0410\U+041A\U+0418
 70
     0
 62
    11
  6
Continuous
370
    -3
390
F
  0
ENDTAB
  0
TABLE
  2
STYLE
  5
3
330
0
100
AcDbSymbolTable
 70
     1
  0
STYLE
  5
11
330
3
100
AcDbSymbolTableRecord
100
AcDbTextStyleTableRecord
  2
Standard
 70
     0
 40
0.0
 41
1.0
 50
0.0
 71
     0
 42
3.5
  3
txt
  4

  0
ENDTAB
  0
TABLE
  2
VIEW
  5
6
330
0
100
AcDbSymbolTable
 70
     0
  0
ENDTAB
  0
TABLE
  2
UCS
  5
7
330
0
100
AcDbSymbolTable
 70
     0
  0
ENDTAB
  0
TABLE
  2
APPID
  5
9
330
0
100
AcDbSymbolTable
 70
     1
  0
APPID
  5
12
330
9
100
AcDbSymbolTableRecord
100
AcDbRegAppTableRecord
  2
ACAD
 70
     0
  0
ENDTAB
  0
TABLE
  2
DIMSTYLE
  5
A
330
0
100
AcDbSymbolTable
 70
     1
100
AcDbDimStyleTable
  0
DIMSTYLE
105
27
330
A
100
AcDbSymbolTableRecord
100
AcDbDimStyleTableRecord
  2
ISO-25
 70
     0
 41
2.5
 42
0.625
 43
3.75
 44
1.25
 73
     0
 74
     0
 77
     1
 78
     8
140
2.5
141
2.5
143
0.0393700787
147
0.625
171
     3
172
     1
178
     0
271
     2
272
     2
274
     3
278
    44
283
     0
284
     8
340
11
  0
ENDTAB
  0
TABLE
  2
BLOCK_RECORD
  5
1
330
0
100
AcDbSymbolTable
 70
     2
  0
BLOCK_RECORD
  5
1F
330
1
100
AcDbSymbolTableRecord
100
AcDbBlockTableRecord
  2
*Model_Space
340
22
  0
BLOCK_RECORD
  5
1B
330
1
100
AcDbSymbolTableRecord
100
AcDbBlockTableRecord
  2
*Paper_Space
340
1E
  0
BLOCK_RECORD
  5
23
330
1
100
AcDbSymbolTableRecord
100
AcDbBlockTableRecord
  2
*Paper_Space0
340
26
  0
BLOCK_RECORD
  5
88
330
1
100
AcDbSymbolTableRecord
100
AcDbBlockTableRecord
  2
SW_CENTERMARKSYMBOL_0
340
0
102
{BLKREFS
331
93
102
}
  0
ENDTAB
  0
ENDSEC
  0
SECTION
  2
BLOCKS
  0
BLOCK
  5
20
330
1F
100
AcDbEntity
  8
0
100
AcDbBlockBegin
  2
*Model_Space
 70
     0
 10
0.0
 20
0.0
 30
0.0
  3
*Model_Space
  1

  0
ENDBLK
  5
21
330
1F
100
AcDbEntity
  8
0
100
AcDbBlockEnd
  0
BLOCK
  5
1C
330
1B
100
AcDbEntity
 67
     1
  8
0
100
AcDbBlockBegin
  2
*Paper_Space
 70
     0
 10
0.0
 20
0.0
 30
0.0
  3
*Paper_Space
  1

  0
ENDBLK
  5
1D
330
1B
100
AcDbEntity
 67
     1
  8
0
100
AcDbBlockEnd
  0
BLOCK
  5
24
330
23
100
AcDbEntity
  8
0
100
AcDbBlockBegin
  2
*Paper_Space0
 70
     0
 10
0.0
 20
0.0
 30
0.0
  3
*Paper_Space0
  1

  0
ENDBLK
  5
25
330
23
100
AcDbEntity
  8
0
100
AcDbBlockEnd
  0
BLOCK
  5
89
330
88
100
AcDbEntity
  8
0
100
AcDbBlockBegin
  2
SW_CENTERMARKSYMBOL_0
 70
     0
 10
0.0
 20
0.0
 30
0.0
  3
SW_CENTERMARKSYMBOL_0
  1

  0
LINE
  5
8B
330
88
100
AcDbEntity
  8
FORMAT
 62
     0
100
AcDbLine
 10
0.0
 20
0.0
 30
0.0
 11
0.0
 21
2.5
 31
0.0
  0
LINE
  5
8C
330
88
100
AcDbEntity
  8
FORMAT
 62
     0
100
AcDbLine
 10
0.0
 20
0.0
 30
0.0
 11
-2.5
 21
0.0
 31
0.0
  0
LINE
  5
8D
330
88
100
AcDbEntity
  8
FORMAT
 62
     0
100
AcDbLine
 10
0.0
 20
0.0
 30
0.0
 11
0.0
 21
-2.5
 31
0.0
  0
LINE
  5
8E
330
88
100
AcDbEntity
  8
FORMAT
 62
     0
100
AcDbLine
 10
0.0
 20
0.0
 30
0.0
 11
2.5
 21
0.0
 31
0.0
  0
LINE
  5
8F
330
88
100
AcDbEntity
  8
FORMAT
 62
     0
100
AcDbLine
 10
0.0
 20
5.0
 30
0.0
 11
0.0
 21
160.0
 31
0.0
  0
LINE
  5
90
330
88
100
AcDbEntity
  8
FORMAT
 62
     0
100
AcDbLine
 10
-5.0
 20
0.0
 30
0.0
 11
-160.0
 21
0.0
 31
0.0
  0
LINE
  5
91
330
88
100
AcDbEntity
  8
FORMAT
 62
     0
100
AcDbLine
 10
0.0
 20
-5.0
 30
0.0
 11
0.0
 21
-160.0
 31
0.0
  0
LINE
  5
92
330
88
100
AcDbEntity
  8
FORMAT
 62
     0
100
AcDbLine
 10
5.0
 20
0.0
 30
0.0
 11
160.0
 21
0.0
 31
0.0
  0
ENDBLK
  5
8A
330
88
100
AcDbEntity
  8
0
100
AcDbBlockEnd
  0
ENDSEC
  0
SECTION
  2
ENTITIES
  0
CIRCLE
  5
83
330
1F
100
AcDbEntity
  8
0
  6
Continuous
 62
     7
370
    25
100
AcDbCircle
 10
139.395004093
 20
107.5851680021
 30
0.0
 40
157.5
  0
CIRCLE
  5
84
330
1F
100
AcDbEntity
  8
0
  6
Continuous
 62
     7
370
    25
100
AcDbCircle
 10
139.395004093
 20
107.5851680021
 30
0.0
 40
128.9
  0
CIRCLE
  5
85
330
1F
100
AcDbEntity
  8
0
  6
Continuous
 62
     7
370
    25
100
AcDbCircle
 10
139.395004093
 20
107.5851680021
 30
0.0
 40
128.6359645961659
  0
CIRCLE
  5
86
330
1F
100
AcDbEntity
  8
0
  6
Continuous
 62
     7
370
    25
100
AcDbCircle
 10
139.395004093
 20
107.5851680021
 30
0.0
 40
102.5640354038341
  0
CIRCLE
  5
87
330
1F
100
AcDbEntity
  8
0
  6
Continuous
 62
     7
370
    25
100
AcDbCircle
 10
139.395004093
 20
107.5851680021
 30
0.0
 40
102.3
  0
INSERT
  5
93
330
1F
100
AcDbEntity
  8
FORMAT
 62
     7
100
AcDbBlockReference
  2
SW_CENTERMARKSYMBOL_0
 10
139.395004093
 20
107.5851680021
 30
0.0
  0
ARC
  5
94
330
1F
100
AcDbEntity
  8
0
  6
Continuous
 62
     7
370
    25
100
AcDbCircle
 10
-397.6905673079
 20
263.0851680021
 30
0.0
 40
2.0
100
AcDbArc
 50
71.2968981606
 51
90.0
  0
ARC
  5
95
330
1F
100
AcDbEntity
  8
0
  6
Continuous
 62
     7
370
    25
100
AcDbCircle
 10
-397.6905673079
 20
-47.9148319979
 30
0.0
 40
2.0
100
AcDbArc
 50
270.0
 51
288.7031018394
  0
LINE
  5
96
330
1F
100
AcDbEntity
  8
0
  6
Continuous
 62
     7
370
    25
100
AcDbLine
 10
-397.690568527
 20
265.08516681
 30
0.0
 11
-547.3612103964
 21
265.08516681
 31
0.0
  0
LINE
  5
97
330
1F
100
AcDbEntity
  8
0
  6
Continuous
 62
     7
370
    25
100
AcDbLine
 10
-547.3612103964
 20
-49.9148308058
 30
0.0
 11
-397.690568527
 21
-49.9148308058
 31
0.0
  0
LINE
  5
98
330
1F
100
AcDbEntity
  8
0
  6
Continuous
 62
     7
370
    25
100
AcDbLine
 10
-397.0492374504
 20
-49.8092113753
 30
0.0
 11
-301.6731743122
 21
-17.5204514284
 31
0.0
  0
LINE
  5
99
330
1F
100
AcDbEntity
  8
0
  6
Continuous
 62
     7
370
    25
100
AcDbLine
 10
-301.6731743122
 20
232.6907874327
 30
0.0
 11
-397.0492374504
 21
264.9795473795
 31
0.0
  0
ARC
  5
9A
330
1F
100
AcDbEntity
  8
0
  6
Continuous
 62
     7
370
    25
100
AcDbCircle
 10
-301.0318461995
 20
234.5851680021
 30
0.0
 40
2.000000000000019
100
AcDbArc
 50
251.2968981606
 51
270.0
  0
ARC
  5
9B
330
1F
100
AcDbEntity
  8
0
  6
Continuous
 62
     7
370
    25
100
AcDbCircle
 10
-301.0318461995
 20
-19.4148319979
 30
0.0
 40
2.000000000000023
100
AcDbArc
 50
90.0
 51
108.7031018394
  0
LINE
  5
9C
330
1F
100
AcDbEntity
  8
0
  6
Continuous
 62
     7
370
    25
100
AcDbLine
 10
-172.3612103964
 20
232.5851680021
 30
0.0
 11
-301.0318469608
 21
232.5851680021
 31
0.0
  0
LINE
  5
9D
330
1F
100
AcDbEntity
  8
0
  6
Continuous
 62
     7
370
    25
100
AcDbLine
 10
-301.0318469608
 20
-17.4148319979
 30
0.0
 11
-172.3612103964
 21
-17.4148319979
 31
0.0
  0
LINE
  5
9E
330
1F
100
AcDbEntity
  8
0
  6
Continuous
 62
     7
370
    25
100
AcDbLine
 10
-547.3612103964
 20
265.08516681
 30
0.0
 11
-547.3612103964
 21
-49.9148308058
 31
0.0
  0
LINE
  5
9F
330
1F
100
AcDbEntity
  8
0
  6
Continuous
 62
     7
370
    25
100
AcDbLine
 10
-172.3612103964
 20
232.5851680021
 30
0.0
 11
-172.3612103964
 21
-17.4148319979
 31
0.0
  0
LINE
  5
A0
330
1F
100
AcDbEntity
  8
0
  6
Continuous
 62
     1
370
    25
100
AcDbLine
 10
-397.0492374504
 20
264.9795473795
 30
0.0
 11
-397.0492374504
 21
-49.8092113753
 31
0.0
  0
LINE
  5
A1
330
1F
100
AcDbEntity
  8
0
  6
Continuous
 62
     1
370
    25
100
AcDbLine
 10
-397.690568527
 20
265.08516681
 30
0.0
 11
-397.690568527
 21
-49.9148308058
 31
0.0
  0
LINE
  5
A2
330
1F
100
AcDbEntity
  8
0
  6
Continuous
 62
     1
370
    25
100
AcDbLine
 10
-301.6731743122
 20
232.6907874327
 30
0.0
 11
-301.6731743122
 21
-17.5204514284
 31
0.0
  0
LINE
  5
A3
330
1F
100
AcDbEntity
  8
0
  6
Continuous
 62
     1
370
    25
100
AcDbLine
 10
-301.0318469608
 20
232.5851680021
 30
0.0
 11
-301.0318469608
 21
-17.4148319979
 31
0.0
  0
ARC
  5
A4
330
1F
100
AcDbEntity
  8
0
  6
Continuous
 62
     7
370
    25
100
AcDbCircle
 10
646.1859213734
 20
-47.9148319979
 30
0.0
 40
2.000000000000037
100
AcDbArc
 50
251.2968981606
 51
270.0
  0
ARC
  5
A5
330
1F
100
AcDbEntity
  8
0
  6
Continuous
 62
     7
370
    25
100
AcDbCircle
 10
646.1859213734
 20
263.0851680021
 30
0.0
 40
2.000000000000037
100
AcDbArc
 50
90.0
 51
108.7031018394
  0
LINE
  5
A6
330
1F
100
AcDbEntity
  8
0
  6
Continuous
 62
     7
370
    25
100
AcDbLine
 10
646.1859225925
 20
-49.9148308058
 30
0.0
 11
795.8565644618
 21
-49.9148308058
 31
0.0
  0
LINE
  5
A7
330
1F
100
AcDbEntity
  8
0
  6
Continuous
 62
     7
370
    25
100
AcDbLine
 10
795.8565644618
 20
265.08516681
 30
0.0
 11
646.1859225925
 21
265.08516681
 31
0.0
  0
LINE
  5
A8
330
1F
100
AcDbEntity
  8
0
  6
Continuous
 62
     7
370
    25
100
AcDbLine
 10
645.5445915159
 20
264.9795473795
 30
0.0
 11
550.1685283776
 21
232.6907874327
 31
0.0
  0
LINE
  5
A9
330
1F
100
AcDbEntity
  8
0
  6
Continuous
 62
     7
370
    25
100
AcDbLine
 10
550.1685283776
 20
-17.5204514284
 30
0.0
 11
645.5445915159
 21
-49.8092113753
 31
0.0
  0
ARC
  5
AA
330
1F
100
AcDbEntity
  8
0
  6
Continuous
 62
     7
370
    25
100
AcDbCircle
 10
549.5272002649
 20
-19.4148319979
 30
0.0
 40
2.000000000000004
100
AcDbArc
 50
71.2968981606
 51
90.0
  0
ARC
  5
AB
330
1F
100
AcDbEntity
  8
0
  6
Continuous
 62
     7
370
    25
100
AcDbCircle
 10
549.5272002649
 20
234.5851680021
 30
0.0
 40
2.000000000000001
100
AcDbArc
 50
270.0
 51
288.7031018394
  0
LINE
  5
AC
330
1F
100
AcDbEntity
  8
0
  6
Continuous
 62
     7
370
    25
100
AcDbLine
 10
420.8565644618
 20
-17.4148319979
 30
0.0
 11
549.5272010263
 21
-17.4148319979
 31
0.0
  0
LINE
  5
AD
330
1F
100
AcDbEntity
  8
0
  6
Continuous
 62
     7
370
    25
100
AcDbLine
 10
549.5272010263
 20
232.5851680021
 30
0.0
 11
420.8565644618
 21
232.5851680021
 31
0.0
  0
LINE
  5
AE
330
1F
100
AcDbEntity
  8
0
  6
Continuous
 62
     7
370
    25
100
AcDbLine
 10
795.8565644618
 20
107.5851680021
 30
0.0
 11
795.8565644618
 21
265.08516681
 31
0.0
  0
LINE
  5
AF
330
1F
100
AcDbEntity
  8
0
  6
Continuous
 62
     7
370
    25
100
AcDbLine
 10
795.8565644618
 20
-49.9148308058
 30
0.0
 11
795.8565644618
 21
107.5851680021
 31
0.0
  0
LINE
  5
B0
330
1F
100
AcDbEntity
  8
0
  6
Continuous
 62
     7
370
    25
100
AcDbLine
 10
420.8565644618
 20
107.5851680021
 30
0.0
 11
420.8565644618
 21
232.5851680021
 31
0.0
  0
LINE
  5
B1
330
1F
100
AcDbEntity
  8
0
  6
Continuous
 62
     7
370
    25
100
AcDbLine
 10
420.8565644618
 20
-17.4148319979
 30
0.0
 11
420.8565644618
 21
107.5851680021
 31
0.0
  0
LINE
  5
B2
330
1F
100
AcDbEntity
  8
0
  6
Continuous
 62
     1
370
    25
100
AcDbLine
 10
645.5445915159
 20
107.5851680021
 30
0.0
 11
645.5445915159
 21
264.9795473795
 31
0.0
  0
LINE
  5
B3
330
1F
100
AcDbEntity
  8
0
  6
Continuous
 62
     1
370
    25
100
AcDbLine
 10
645.5445915159
 20
-49.8092113753
 30
0.0
 11
645.5445915159
 21
107.5851680021
 31
0.0
  0
LINE
  5
B4
330
1F
100
AcDbEntity
  8
0
  6
Continuous
 62
     1
370
    25
100
AcDbLine
 10
646.1859225925
 20
107.5851680021
 30
0.0
 11
646.1859225925
 21
265.08516681
 31
0.0
  0
LINE
  5
B5
330
1F
100
AcDbEntity
  8
0
  6
Continuous
 62
     1
370
    25
100
AcDbLine
 10
646.1859225925
 20
-49.9148308058
 30
0.0
 11
646.1859225925
 21
107.5851680021
 31
0.0
  0
LINE
  5
B6
330
1F
100
AcDbEntity
  8
0
  6
Continuous
 62
     1
370
    25
100
AcDbLine
 10
550.1685283776
 20
107.5851680021
 30
0.0
 11
550.1685283776
 21
232.6907874327
 31
0.0
  0
LINE
  5
B7
330
1F
100
AcDbEntity
  8
0
  6
Continuous
 62
     1
370
    25
100
AcDbLine
 10
550.1685283776
 20
-17.5204514284
 30
0.0
 11
550.1685283776
 21
107.5851680021
 31
0.0
  0
LINE
  5
B8
330
1F
100
AcDbEntity
  8
0
  6
Continuous
 62
     1
370
    25
100
AcDbLine
 10
549.5272010263
 20
107.5851680021
 30
0.0
 11
549.5272010263
 21
232.5851680021
 31
0.0
  0
LINE
  5
B9
330
1F
100
AcDbEntity
  8
0
  6
Continuous
 62
     1
370
    25
100
AcDbLine
 10
549.5272010263
 20
-17.4148319979
 30
0.0
 11
549.5272010263
 21
107.5851680021
 31
0.0
  0
ARC
  5
BA
330
1F
100
AcDbEntity
  8
0
  6
Continuous
 62
     7
370
    25
100
AcDbCircle
 10
294.895004093
 20
583.1740944019
 30
0.0
 40
2.0
100
AcDbArc
 50
341.2968981606
 51
0.0
  0
ARC
  5
BB
330
1F
100
AcDbEntity
  8
0
  6
Continuous
 62
     7
370
    25
100
AcDbCircle
 10
-16.104995907
 20
583.1740944019
 30
0.0
 40
2.000000000000004
100
AcDbArc
 50
180.0
 51
198.7031018394
  0
LINE
  5
BC
330
1F
100
AcDbEntity
  8
0
  6
Continuous
 62
     7
370
    25
100
AcDbLine
 10
296.895002901
 20
583.174095621
 30
0.0
 11
296.895002901
 21
732.8447374903
 31
0.0
  0
LINE
  5
BD
330
1F
100
AcDbEntity
  8
0
  6
Continuous
 62
     7
370
    25
100
AcDbLine
 10
-18.1049947149
 20
732.8447374903
 30
0.0
 11
-18.1049947149
 21
583.174095621
 31
0.0
  0
LINE
  5
BE
330
1F
100
AcDbEntity
  8
0
  6
Continuous
 62
     7
370
    25
100
AcDbLine
 10
-17.9993752843
 20
582.5327645444
 30
0.0
 11
14.2893846625
 21
487.1567014061
 31
0.0
  0
LINE
  5
BF
330
1F
100
AcDbEntity
  8
0
  6
Continuous
 62
     7
370
    25
100
AcDbLine
 10
264.5006235236
 20
487.1567014061
 30
0.0
 11
296.7893834704
 21
582.5327645444
 31
0.0
  0
ARC
  5
C0
330
1F
100
AcDbEntity
  8
0
  6
Continuous
 62
     7
370
    25
100
AcDbCircle
 10
266.395004093
 20
486.5153732934
 30
0.0
 40
2.0
100
AcDbArc
 50
161.2968981606
 51
180.0
  0
ARC
  5
C1
330
1F
100
AcDbEntity
  8
0
  6
Continuous
 62
     7
370
    25
100
AcDbCircle
 10
12.395004093
 20
486.5153732934
 30
0.0
 40
2.000000000000002
100
AcDbArc
 50
0.0
 51
18.7031018394
  0
LINE
  5
C2
330
1F
100
AcDbEntity
  8
0
  6
Continuous
 62
     7
370
    25
100
AcDbLine
 10
264.395004093
 20
357.8447374903
 30
0.0
 11
264.395004093
 21
486.5153740548
 31
0.0
  0
LINE
  5
C3
330
1F
100
AcDbEntity
  8
0
  6
Continuous
 62
     7
370
    25
100
AcDbLine
 10
14.395004093
 20
486.5153740548
 30
0.0
 11
14.395004093
 21
357.8447374903
 31
0.0
  0
LINE
  5
C4
330
1F
100
AcDbEntity
  8
0
  6
Continuous
 62
     7
370
    25
100
AcDbLine
 10
296.895002901
 20
732.8447374903
 30
0.0
 11
-18.1049947149
 21
732.8447374903
 31
0.0
  0
LINE
  5
C5
330
1F
100
AcDbEntity
  8
0
  6
Continuous
 62
     7
370
    25
100
AcDbLine
 10
264.395004093
 20
357.8447374903
 30
0.0
 11
14.395004093
 21
357.8447374903
 31
0.0
  0
LINE
  5
C6
330
1F
100
AcDbEntity
  8
0
  6
Continuous
 62
     1
370
    25
100
AcDbLine
 10
296.7893834704
 20
582.5327645444
 30
0.0
 11
-17.9993752843
 21
582.5327645444
 31
0.0
  0
LINE
  5
C7
330
1F
100
AcDbEntity
  8
0
  6
Continuous
 62
     1
370
    25
100
AcDbLine
 10
296.895002901
 20
583.174095621
 30
0.0
 11
-18.1049947149
 21
583.174095621
 31
0.0
  0
LINE
  5
C8
330
1F
100
AcDbEntity
  8
0
  6
Continuous
 62
     1
370
    25
100
AcDbLine
 10
264.5006235236
 20
487.1567014061
 30
0.0
 11
14.2893846625
 21
487.1567014061
 31
0.0
  0
LINE
  5
C9
330
1F
100
AcDbEntity
  8
0
  6
Continuous
 62
     1
370
    25
100
AcDbLine
 10
264.395004093
 20
486.5153740548
 30
0.0
 11
14.395004093
 21
486.5153740548
 31
0.0
  0
ARC
  5
CA
330
1F
100
AcDbEntity
  8
0
  6
Continuous
 62
     7
370
    25
100
AcDbCircle
 10
-16.104995907
 20
-414.6488744385
 30
0.0
 40
2.000000000000004
100
AcDbArc
 50
161.2968981606
 51
180.0
  0
ARC
  5
CB
330
1F
100
AcDbEntity
  8
0
  6
Continuous
 62
     7
370
    25
100
AcDbCircle
 10
294.895004093
 20
-414.6488744385
 30
0.0
 40
2.000000000000001
100
AcDbArc
 50
0.0
 51
18.7031018394
  0
LINE
  5
CC
330
1F
100
AcDbEntity
  8
0
  6
Continuous
 62
     7
370
    25
100
AcDbLine
 10
-18.1049947149
 20
-414.6488756576
 30
0.0
 11
-18.1049947149
 21
-564.3195175269
 31
0.0
  0
LINE
  5
CD
330
1F
100
AcDbEntity
  8
0
  6
Continuous
 62
     7
370
    25
100
AcDbLine
 10
296.895002901
 20
-564.3195175269
 30
0.0
 11
296.895002901
 21
-414.6488756576
 31
0.0
  0
LINE
  5
CE
330
1F
100
AcDbEntity
  8
0
  6
Continuous
 62
     7
370
    25
100
AcDbLine
 10
296.7893834704
 20
-414.007544581
 30
0.0
 11
264.5006235236
 21
-318.6314814427
 31
0.0
  0
LINE
  5
CF
330
1F
100
AcDbEntity
  8
0
  6
Continuous
 62
     7
370
    25
100
AcDbLine
 10
14.2893846625
 20
-318.6314814427
 30
0.0
 11
-17.9993752843
 21
-414.007544581
 31
0.0
  0
ARC
  5
D0
330
1F
100
AcDbEntity
  8
0
  6
Continuous
 62
     7
370
    25
100
AcDbCircle
 10
12.395004093
 20
-317.99015333
 30
0.0
 40
2.000000000000003
100
AcDbArc
 50
341.2968981606
 51
0.0
  0
ARC
  5
D1
330
1F
100
AcDbEntity
  8
0
  6
Continuous
 62
     7
370
    25
100
AcDbCircle
 10
266.395004093
 20
-317.99015333
 30
0.0
 40
2.000000000000001
100
AcDbArc
 50
180.0
 51
198.7031018394
  0
LINE
  5
D2
330
1F
100
AcDbEntity
  8
0
  6
Continuous
 62
     7
370
    25
100
AcDbLine
 10
14.395004093
 20
-189.3195175269
 30
0.0
 11
14.395004093
 21
-317.9901540914
 31
0.0
  0
LINE
  5
D3
330
1F
100
AcDbEntity
  8
0
  6
Continuous
 62
     7
370
    25
100
AcDbLine
 10
264.395004093
 20
-317.9901540914
 30
0.0
 11
264.395004093
 21
-189.3195175269
 31
0.0
  0
LINE
  5
D4
330
1F
100
AcDbEntity
  8
0
  6
Continuous
 62
     7
370
    25
100
AcDbLine
 10
-18.1049947149
 20
-564.3195175269
 30
0.0
 11
296.895002901
 21
-564.3195175269
 31
0.0
  0
LINE
  5
D5
330
1F
100
AcDbEntity
  8
0
  6
Continuous
 62
     7
370
    25
100
AcDbLine
 10
14.395004093
 20
-189.3195175269
 30
0.0
 11
264.395004093
 21
-189.3195175269
 31
0.0
  0
LINE
  5
D6
330
1F
100
AcDbEntity
  8
0
  6
Continuous
 62
     1
370
    25
100
AcDbLine
 10
-17.9993752843
 20
-414.007544581
 30
0.0
 11
296.7893834704
 21
-414.007544581
 31
0.0
  0
LINE
  5
D7
330
1F
100
AcDbEntity
  8
0
  6
Continuous
 62
     1
370
    25
100
AcDbLine
 10
-18.1049947149
 20
-414.6488756576
 30
0.0
 11
296.895002901
 21
-414.6488756576
 31
0.0
  0
LINE
  5
D8
330
1F
100
AcDbEntity
  8
0
  6
Continuous
 62
     1
370
    25
100
AcDbLine
 10
14.2893846625
 20
-318.6314814427
 30
0.0
 11
264.5006235236
 21
-318.6314814427
 31
0.0
  0
LINE
  5
D9
330
1F
100
AcDbEntity
  8
0
  6
Continuous
 62
     1
370
    25
100
AcDbLine
 10
14.395004093
 20
-317.9901540914
 30
0.0
 11
264.395004093
 21
-317.9901540914
 31
0.0
  0
LINE
  5
DA
330
1F
100
AcDbEntity
  8
0
  6
Continuous
 62
     7
370
    25
100
AcDbLine
 10
704.761547664
 20
-214.2707520545
 30
0.0
 11
598.9284218537
 21
-153.1745889926
 31
0.0
  0
LINE
  5
DB
330
1F
100
AcDbEntity
  8
0
  6
Continuous
 62
     7
370
    25
100
AcDbLine
 10
441.441222229
 20
-425.9799862809
 30
0.0
 11
547.2743480393
 21
-487.0761493429
 31
0.0
  0
SPLINE
  5
DC
330
1F
100
AcDbEntity
  8
0
  6
Continuous
 62
     7
370
    25
100
AcDbSpline
210
0.0
220
0.0
230
1.0
 70
     8
 71
     3
 72
     9
 73
     5
 74
     0
 42
0.000000001
 43
0.00000001
 40
0.0
 40
0.0
 40
0.0
 40
0.0
 40
0.1246477417867387
 40
1.0
 40
1.0
 40
1.0
 40
1.0
 10
715.0959312112802
 20
-222.0165034934833
 30
0.0
 10
715.0533210772028
 20
-221.9728098068534
 30
0.0
 10
714.7114766645675
 20
-221.6222724765853
 30
0.0
 10
714.3380338394867
 20
-221.3163304966874
 30
0.0
 10
714.0111398192386
 20
-221.0485234937016
 30
0.0
  0
LINE
  5
DD
330
1F
100
AcDbEntity
  8
0
  6
Continuous
 62
     7
370
    25
100
AcDbLine
 10
568.9109753631
 20
-494.1597834706
 30
0.0
 11
648.1603136499
 21
-503.710787875
 31
0.0
  0
LINE
  5
DE
330
1F
100
AcDbEntity
  8
0
  6
Continuous
 62
     7
370
    25
100
AcDbLine
 10
769.6179742604
 20
-293.3171537109
 30
0.0
 11
721.7158971942
 21
-229.4652113289
 31
0.0
  0
LINE
  5
DF
330
1F
100
AcDbEntity
  8
0
  6
Continuous
 62
     7
370
    25
100
AcDbLine
 10
847.8447852214
 20
-334.3977024794
 30
0.0
 11
764.2204064958
 21
-286.1223762103
 31
0.0
  0
LINE
  5
E0
330
1F
100
AcDbEntity
  8
0
  6
Continuous
 62
     7
370
    25
100
AcDbLine
 10
639.2305660255
 20
-502.6345884586
 30
0.0
 11
722.8549447512
 21
-550.9099147277
 31
0.0
  0
ARC
  5
E1
330
1F
100
AcDbEntity
  8
0
  6
Continuous
 62
     7
370
    25
100
AcDbCircle
 10
678.1460667483
 20
-260.314864601
 30
0.0
 40
53.1831187931187
100
AcDbArc
 50
47.8941466702
 51
59.9702373153
  0
ARC
  5
E2
330
1F
100
AcDbEntity
  8
0
  6
Continuous
 62
     7
370
    25
100
AcDbCircle
 10
573.8787214159
 20
-440.9121150405
 30
0.0
 40
53.28142965263734
100
AcDbArc
 50
240.0451148709
 51
252.3942127608
  0
LWPOLYLINE
  5
E3
330
1F
100
AcDbEntity
  8
0
  6
Continuous
 62
     7
370
    25
100
AcDbPolyline
 90
      134
 70
   128
 43
0.0
 10
408.8155048474
 20
-353.8694259562
 10
408.9397537568
 20
-347.724393267
 10
409.3122476039
 20
-341.4496032745
 10
409.9321329151
 20
-335.0590719899
 10
410.7980293811
 20
-328.5670541608
 10
411.9080193202
 20
-321.9880303416
 10
413.2596160684
 20
-315.3366894
 10
414.8497955892
 20
-308.6278707253
 10
416.6750280843
 20
-301.876539896
 10
418.7312358459
 20
-295.0977628201
 10
421.0138143308
 20
-288.3066722772
 10
423.5176953806
 20
-281.518407087
 10
426.2372629276
 20
-274.7481333943
 10
429.1664794358
 20
-268.0109443002
 10
432.2987805336
 20
-261.3218841864
 10
435.6271961858
 20
-254.6958665973
 10
439.1442927421
 20
-248.1476894431
 10
442.842220352
 20
-241.6919528749
 10
446.7127340381
 20
-235.3430714534
 10
450.7471884283
 20
-229.1152041865
 10
454.9365851703
 20
-223.0222575753
 10
459.2715782004
 20
-217.0778156518
 10
463.742494817
 20
-211.2951399812
 10
468.3393514854
 20
-205.6871605378
 10
473.0518959845
 20
-200.2663540347
 10
477.8696153099
 20
-195.0448488685
 10
482.7817541127
 20
-190.0342806332
 10
487.7773568464
 20
-185.2458286262
 10
492.8452704013
 20
-180.6901778255
 10
497.9741915194
 20
-176.377503685
 10
503.1526707459
 20
-172.3174211835
 10
508.3691572101
 20
-168.5189833083
 10
513.6120078452
 20
-164.9906879004
 10
518.8695254189
 20
-161.7403826945
 10
524.1299781255
 20
-158.7753391817
 10
529.3816272444
 20
-156.1021636373
 10
534.6127551287
 20
-153.7268174663
 10
539.8116887476
 20
-151.6546157793
 10
544.9668265226
 20
-149.8901632312
 10
550.0666663152
 20
-148.4374108683
 10
555.0998271593
 20
-147.2996070806
 10
560.0550821881
 20
-146.479266426
 10
564.9213678539
 20
-145.9782373121
 10
569.687828709
 20
-145.7976396425
 10
574.3438332108
 20
-145.937855693
 10
578.8789816246
 20
-146.3986107211
 10
583.2831639749
 20
-147.1788300046
 10
587.5465495095
 20
-148.2768152678
 10
591.6596235772
 20
-149.690083467
 10
595.6132087017
 20
-151.415500634
 10
599.3984856551
 20
-153.4492088735
 10
603.0070039942
 20
-155.7866750337
 10
606.4307136709
 20
-158.422678542
 10
609.6619808374
 20
-161.3513387829
 10
612.6935825773
 20
-164.5661242235
 10
615.51875959
 20
-168.0598585016
 10
618.1312109215
 20
-171.8247417186
 10
620.5251097701
 20
-175.8523778174
 10
622.695103486
 20
-180.1337806662
 10
624.6363662549
 20
-184.6593892728
 10
626.344546415
 20
-189.4191194909
 10
627.8158507496
 20
-194.4023336096
 10
629.0469918048
 20
-199.5979224785
 10
630.0352089618
 20
-204.9942918214
 10
630.7783105846
 20
-210.5793987423
 10
631.2746318727
 20
-216.3407829005
 10
631.5230770079
 20
-222.2655811535
 10
631.5230770079
 20
-228.3405811656
 10
631.2746318727
 20
-234.5522280659
 10
630.7783105846
 20
-240.8866525858
 10
630.0352089618
 20
-247.3297263781
 10
629.0469918048
 20
-253.8670669642
 10
627.8158507496
 20
-260.4841010391
 10
626.344546415
 20
-267.1660469841
 10
624.6363662549
 20
-273.898000035
 10
622.695103486
 20
-280.6649429265
 10
620.5251097701
 20
-287.4517671903
 10
618.1312109215
 20
-294.2433400676
 10
615.51875959
 20
-301.0244953888
 10
612.6935825773
 20
-307.7801096147
 10
609.6619808374
 20
-314.4951079201
 10
606.4307136709
 20
-321.1545098203
 10
603.0070039942
 20
-327.7434443808
 10
599.3984856551
 20
-334.247217133
 10
595.6132087017
 20
-340.6513131166
 10
591.6596235772
 20
-346.9414425058
 10
587.5465495095
 20
-353.1035649414
 10
583.2831639749
 20
-359.1239503665
 10
578.8789816246
 20
-364.9891303552
 10
574.3438332108
 20
-370.6860562868
 10
569.687828709
 20
-376.20198071
 10
564.9213678539
 20
-381.524621604
 10
560.0550821881
 20
-386.6420863267
 10
555.0998271593
 20
-391.5429613489
 10
550.0666663152
 20
-396.2163213777
 10
544.9668265226
 20
-400.6517187066
 10
539.8116887476
 20
-404.8392615416
 10
534.6127551287
 20
-408.7696208429
 10
529.3816272444
 20
-412.4340063678
 10
524.1299781255
 20
-415.8242558326
 10
518.8695254189
 20
-418.9328017349
 10
513.6120078452
 20
-421.7526971117
 10
508.3691572101
 20
-424.2776681996
 10
503.1526707459
 20
-426.5020573966
 10
497.9741915194
 20
-428.4209197446
 10
492.8452704013
 20
-430.0299718795
 10
487.7773568464
 20
-431.3256095211
 10
482.7817541127
 20
-432.3049576594
 10
477.8696153099
 20
-432.9658241659
 10
473.0518959845
 20
-433.3067393334
 10
468.3393514854
 20
-433.3269208943
 10
463.742494817
 20
-433.0263591885
 10
459.2715782004
 20
-432.405693967
 10
454.9365851703
 20
-431.4663284601
 10
450.7471884283
 20
-430.2103563693
 10
446.7127340381
 20
-428.6405709912
 10
442.842220352
 20
-426.7604895507
 10
439.1442927421
 20
-424.5742893211
 10
435.6271961858
 20
-422.0868654153
 10
432.2987805336
 20
-419.3037547397
 10
429.1664794358
 20
-416.2311724945
 10
426.2372629276
 20
-412.8759847929
 10
423.5176953806
 20
-409.2456569543
 10
421.0138143308
 20
-405.3483112892
 10
418.7312358459
 20
-401.1926297688
 10
416.6750280843
 20
-396.7878996414
 10
414.8497955892
 20
-392.1439373942
 10
413.2596160684
 20
-387.2711009144
 10
411.9080193202
 20
-382.1802803617
 10
410.7980293811
 20
-376.8828236472
 10
409.9321329151
 20
-371.3905485975
 10
409.3122476039
 20
-365.7157216591
 10
408.9397537568
 20
-359.8710039081
 10
408.8155048474
 20
-353.8694259562
  0
LWPOLYLINE
  5
E4
330
1F
100
AcDbEntity
  8
0
  6
Continuous
 62
     7
370
    25
100
AcDbPolyline
 90
      121
 70
   128
 43
0.0
 10
429.0387534114
 20
-342.1947930617
 10
429.1636661337
 20
-336.6142124949
 10
429.5380671257
 20
-330.9047036459
 10
430.160913253
 20
-325.0819266292
 10
431.0305186416
 20
-319.1618274328
 10
432.1444861895
 20
-313.1606417147
 10
433.4997655186
 20
-307.094814959
 10
435.0926424378
 20
-300.9809735779
 10
436.9187494799
 20
-294.8358777638
 10
438.9730817068
 20
-288.6763697791
 10
441.250012514
 20
-282.5193252883
 10
443.7432988997
 20
-276.3816290236
 10
446.4461078061
 20
-270.2801017831
 10
449.3510266562
 20
-264.2314700129
 10
452.4500949639
 20
-258.2523019317
 10
455.7348201393
 20
-252.358998406
 10
459.1961985619
 20
-246.5677077811
 10
462.8247471907
 20
-240.8943015486
 10
466.6105088329
 20
-235.354334803
 10
470.5431153636
 20
-229.9629854109
 10
474.6117877264
 20
-224.7350357594
 10
478.8053754456
 20
-219.6848134439
 10
483.1123777
 20
-214.8261669355
 10
487.520993372
 20
-210.1724062694
 10
492.0191394869
 20
-205.7362863163
 10
496.5944854574
 20
-201.5299687626
 10
501.2344899619
 20
-197.5649825699
 10
505.9264365059
 20
-193.8521912783
 10
510.6574637152
 20
-190.401787686
 10
515.4146055069
 20
-187.2232037384
 10
520.1848220413
 20
-184.3251717479
 10
524.9550385757
 20
-181.7156289598
 10
529.7121803675
 20
-179.4017339053
 10
534.4432075768
 20
-177.3898097507
 10
539.1351541208
 20
-175.685394871
 10
543.7751586253
 20
-174.2931458948
 10
548.3505045958
 20
-173.2168814339
 10
552.8486507107
 20
-172.4595524284
 10
557.2572663827
 20
-172.0232337851
 10
561.5642686371
 20
-171.9091213387
 10
565.7578563563
 20
-172.1175303344
 10
569.8265287191
 20
-172.6478908669
 10
573.7591352498
 20
-173.4987494057
 10
577.544896892
 20
-174.6677687975
 10
581.1734455208
 20
-176.1517419577
 10
584.6348239434
 20
-177.9466101221
 10
587.9195491188
 20
-180.0474506851
 10
591.0186174265
 20
-182.4485106605
 10
593.9235362766
 20
-185.1431945171
 10
596.6263451829
 20
-188.1241250181
 10
599.1196315687
 20
-191.3831340964
 10
601.3965623759
 20
-194.9112902346
 10
603.4508946027
 20
-198.6989167172
 10
605.2770016449
 20
-202.7356342185
 10
606.8698785641
 20
-207.010379055
 10
608.2251578931
 20
-211.5114336044
 10
609.3391254411
 20
-216.2264597684
 10
610.2087308297
 20
-221.1425339543
 10
610.831576957
 20
-226.2461881395
 10
611.205977949
 20
-231.5234228043
 10
611.3308906713
 20
-236.9597822118
 10
611.205977949
 20
-242.5403627786
 10
610.831576957
 20
-248.2498716276
 10
610.2087308297
 20
-254.0726486444
 10
609.3391254411
 20
-259.9927478407
 10
608.2251578931
 20
-265.9939335589
 10
606.8698785641
 20
-272.0597603145
 10
605.2770016449
 20
-278.1736016956
 10
603.4508946027
 20
-284.3186975098
 10
601.3965623759
 20
-290.4782054945
 10
599.1196315687
 20
-296.6352499853
 10
596.6263451829
 20
-302.77294625
 10
593.9235362766
 20
-308.8744734905
 10
591.0186174265
 20
-314.9231052606
 10
587.9195491188
 20
-320.9022733419
 10
584.6348239434
 20
-326.7955768675
 10
581.1734455208
 20
-332.5868674924
 10
577.544896892
 20
-338.260273725
 10
573.7591352498
 20
-343.8002404705
 10
569.8265287191
 20
-349.1915898626
 10
565.7578563563
 20
-354.4195395142
 10
561.5642686371
 20
-359.4697618297
 10
557.2572663827
 20
-364.328408338
 10
552.8486507107
 20
-368.9821690041
 10
548.3505045958
 20
-373.4182889573
 10
543.7751586253
 20
-377.624606511
 10
539.1351541208
 20
-381.5895927037
 10
534.4432075768
 20
-385.3023839953
 10
529.7121803675
 20
-388.7527875876
 10
524.9550385757
 20
-391.9313715352
 10
520.1848220413
 20
-394.8294035257
 10
515.4146055069
 20
-397.4389463138
 10
510.6574637152
 20
-399.7528413682
 10
505.9264365059
 20
-401.7647655229
 10
501.2344899619
 20
-403.4691804025
 10
496.5944854574
 20
-404.8614293787
 10
492.0191394869
 20
-405.9376938396
 10
487.520993372
 20
-406.6950228451
 10
483.1123777
 20
-407.1313414885
 10
478.8053754456
 20
-407.2454539349
 10
474.6117877264
 20
-407.0370449392
 10
470.5431153636
 20
-406.5066844067
 10
466.6105088329
 20
-405.6558258678
 10
462.8247471907
 20
-404.4868064761
 10
459.1961985619
 20
-403.0028333159
 10
455.7348201393
 20
-401.2079651514
 10
452.4500949639
 20
-399.1071245885
 10
449.3510266562
 20
-396.7060646131
 10
446.4461078061
 20
-394.0113807564
 10
443.7432988997
 20
-391.0304502555
 10
441.250012514
 20
-387.7714411772
 10
438.9730817068
 20
-384.2432850389
 10
436.9187494799
 20
-380.4556585564
 10
435.0926424378
 20
-376.418941055
 10
433.4997655186
 20
-372.1441962186
 10
432.1444861895
 20
-367.6431416691
 10
431.0305186416
 20
-362.9281155052
 10
430.160913253
 20
-358.0120413192
 10
429.5380671257
 20
-352.9083871341
 10
429.1636661337
 20
-347.6311524693
 10
429.0387534114
 20
-342.1947930617
  0
ARC
  5
E5
330
1F
100
AcDbEntity
  8
0
  6
Continuous
 62
     7
370
    25
100
AcDbCircle
 10
669.4883622
 20
-269.023895276
 30
0.0
 40
65.48724204556059
100
AcDbArc
 50
21.9403208981
 51
45.6775851695
  0
ARC
  5
E6
330
1F
100
AcDbEntity
  8
0
  6
Continuous
 62
     7
370
    25
100
AcDbCircle
 10
576.9059395519
 20
-431.3025584129
 30
0.0
 40
63.3522221454019
100
AcDbArc
 50
251.6784502978
 51
277.110113127
  0
ARC
  5
E7
330
1F
100
AcDbEntity
  8
0
  6
Continuous
 62
     7
370
    25
100
AcDbCircle
 10
725.935493271
 20
-325.8387711124
 30
0.0
 40
54.45929437478734
100
AcDbArc
 50
23.499659842
 51
36.6676921901
  0
ARC
  5
E8
330
1F
100
AcDbEntity
  8
0
  6
Continuous
 62
     7
370
    25
100
AcDbCircle
 10
654.39586202
 20
-450.8202823197
 30
0.0
 40
53.25680840390707
100
AcDbArc
 50
263.2761278128
 51
272.9321382927
  0
LWPOLYLINE
  5
E9
330
1F
100
AcDbEntity
  8
0
  6
Continuous
 62
     7
370
    25
100
AcDbPolyline
 90
       61
 70
   128
 43
0.0
 10
847.8447852214
 20
-334.3977024794
 10
850.2953399711
 20
-335.9279229227
 10
853.394218618
 20
-338.2285835275
 10
856.3002227494
 20
-340.8252529449
 10
859.0051073881
 20
-343.7105660785
 10
861.5012070759
 20
-346.8763426703
 10
863.7814464108
 20
-350.3136146779
 10
865.8393663881
 20
-354.0126323611
 10
867.6691296693
 20
-357.9629129515
 10
869.2655521921
 20
-362.1532558652
 10
870.6241031703
 20
-366.5717913724
 10
871.740936704
 20
-371.2059866837
 10
872.6128812427
 20
-376.0427113492
 10
873.2374764642
 20
-381.0682494293
 10
873.6129416641
 20
-386.2683591883
 10
873.7382126346
 20
-391.6283016146
 10
873.6129416641
 20
-397.1328788248
 10
873.2374764642
 20
-402.7664914763
 10
872.6128812427
 20
-408.5131718493
 10
871.740936704
 20
-414.3566222504
 10
870.6241031703
 20
-420.2802861125
 10
869.2655521921
 20
-426.2673711916
 10
867.6691296693
 20
-432.3009043168
 10
865.8393663881
 20
-438.3637846237
 10
863.7814464108
 20
-444.4388261376
 10
861.5012070759
 20
-450.5088064424
 10
859.0051073881
 20
-456.5565183901
 10
856.3002227494
 20
-462.5648248528
 10
853.394218618
 20
-468.5166952228
 10
850.2953399711
 20
-474.3952449558
 10
847.0123638899
 20
-480.1838237799
 10
843.5545995596
 20
-485.8660217795
 10
839.9318461224
 20
-491.425730228
 10
836.1543768727
 20
-496.8471872146
 10
832.2328918416
 20
-502.115035435
 10
828.178515163
 20
-507.2143237114
 10
824.0027371215
 20
-512.1306134526
 10
819.7173904447
 20
-516.8499619215
 10
815.3346265959
 20
-521.3589967578
 10
810.8668683587
 20
-525.6449250995
 10
806.3267795441
 20
-529.6956119075
 10
801.7272294287
 20
-533.4995700767
 10
797.0812545598
 20
-537.0460129036
 10
792.4020271444
 20
-540.3248905862
 10
787.7028089519
 20
-543.3269107519
 10
782.9969210207
 20
-546.043562029
 10
778.2977028282
 20
-548.4671437012
 10
773.6184754128
 20
-550.5907869965
 10
768.9725005438
 20
-552.4084725746
 10
764.3729504285
 20
-553.9150419309
 10
759.8328616139
 20
-555.1062300918
 10
755.3651033767
 20
-555.9786656119
 10
750.9823395279
 20
-556.5298622053
 10
746.6969928511
 20
-556.7582696935
 10
742.5212148096
 20
-556.6632306558
 10
738.466838131
 20
-556.2450260529
 10
734.5453530999
 20
-555.5048280757
 10
730.7678838502
 20
-554.4447442503
 10
727.145130413
 20
-553.0677778882
 10
723.6873660827
 20
-551.377829607
 10
722.8549447512
 20
-550.9099147277
  0
LWPOLYLINE
  5
EA
330
1F
100
AcDbEntity
  8
0
  6
Continuous
 62
     1
370
    25
100
AcDbPolyline
 90
       63
 70
   128
 43
0.0
 10
713.8054763694
 20
-220.8579180637
 10
715.4951066477
 20
-222.4475018448
 10
718.5267083877
 20
-225.6622872854
 10
721.3518854003
 20
-229.1560215635
 10
723.9643367319
 20
-232.9209047805
 10
726.3582355804
 20
-236.9485408793
 10
728.5282292963
 20
-241.2299437281
 10
730.4694920653
 20
-245.7555523347
 10
732.1776722253
 20
-250.5152825528
 10
733.64897656
 20
-255.4984966715
 10
734.8801176151
 20
-260.6940855404
 10
735.8683347721
 20
-266.0904548833
 10
736.6114363949
 20
-271.6755618042
 10
737.107757683
 20
-277.4369459624
 10
737.3562028183
 20
-283.3617442154
 10
737.3562028183
 20
-289.4367442275
 10
737.107757683
 20
-295.6483911278
 10
736.6114363949
 20
-301.9828156477
 10
735.8683347721
 20
-308.42588944
 10
734.8801176151
 20
-314.9632300261
 10
733.64897656
 20
-321.580264101
 10
732.1776722253
 20
-328.262210046
 10
730.4694920653
 20
-334.9941630969
 10
728.5282292963
 20
-341.7611059884
 10
726.3582355804
 20
-348.5479302522
 10
723.9643367319
 20
-355.3395031295
 10
721.3518854003
 20
-362.1206584507
 10
718.5267083877
 20
-368.8762726766
 10
715.4951066477
 20
-375.591270982
 10
712.2638394813
 20
-382.2506728822
 10
708.8401298045
 20
-388.8396074427
 10
705.2316114655
 20
-395.3433801949
 10
701.4463345121
 20
-401.7474761785
 10
697.4927493875
 20
-408.0376055677
 10
693.3796753198
 20
-414.1997280033
 10
689.1162897853
 20
-420.2201134284
 10
684.7121074349
 20
-426.0852934171
 10
680.1769590212
 20
-431.7822193487
 10
675.5209545193
 20
-437.2981437719
 10
670.7544936642
 20
-442.6207846659
 10
665.8882079985
 20
-447.7382493886
 10
660.9329529697
 20
-452.6391244108
 10
655.8997921256
 20
-457.3124844396
 10
650.7999523329
 20
-461.7478817685
 10
645.644814558
 20
-465.9354246035
 10
640.4458809391
 20
-469.8657839048
 10
635.2147530548
 20
-473.5301694297
 10
629.9631039358
 20
-476.9204188945
 10
624.7026512292
 20
-480.0289647968
 10
619.4451336555
 20
-482.8488601736
 10
614.2022830204
 20
-485.3738312615
 10
608.9857965562
 20
-487.5982204585
 10
603.8073173297
 20
-489.5170828065
 10
598.6783962116
 20
-491.1261349414
 10
593.6104826567
 20
-492.421772583
 10
588.614879923
 20
-493.4011207213
 10
583.7027411202
 20
-494.0619872278
 10
578.8850217948
 20
-494.4029023953
 10
574.1724772957
 20
-494.4230839562
 10
569.5756206274
 20
-494.1225222504
 10
565.1047040108
 20
-493.5018570289
 10
560.7697109806
 20
-492.562491522
 10
557.7628915876
 20
-491.6978490095
  0
LWPOLYLINE
  5
EB
330
1F
100
AcDbEntity
  8
0
  6
Continuous
 62
     1
370
    25
100
AcDbPolyline
 90
       25
 70
   128
 43
0.0
 10
535.8818178108
 20
-384.1951297457
 10
536.5143050297
 20
-380.0563211389
 10
537.6282725776
 20
-374.0551354208
 10
538.9835519067
 20
-367.9893086651
 10
540.5764288259
 20
-361.875467284
 10
542.402535868
 20
-355.7303714699
 10
544.4568680949
 20
-349.5708634852
 10
546.7337989021
 20
-343.4138189944
 10
549.2270852878
 20
-337.2761227297
 10
551.9298941942
 20
-331.1745954892
 10
554.8348130442
 20
-325.125963719
 10
557.933881352
 20
-319.1467956378
 10
561.2186065274
 20
-313.2534921121
 10
564.67998495
 20
-307.4622014872
 10
568.3085335788
 20
-301.7887952547
 10
572.094295221
 20
-296.2488285091
 10
576.0269017517
 20
-290.857479117
 10
580.0955741145
 20
-285.6295294655
 10
584.2891618337
 20
-280.57930715
 10
588.5961640881
 20
-275.7206606416
 10
593.0047797601
 20
-271.0668999755
 10
597.502925875
 20
-266.6307800224
 10
602.0782718455
 20
-262.4244624687
 10
606.71827635
 20
-258.459476276
 10
609.9716113429
 20
-255.853937578
  0
LWPOLYLINE
  5
EC
330
1F
100
AcDbEntity
  8
0
  6
Continuous
 62
     1
370
    25
100
AcDbPolyline
 90
       51
 70
   128
 43
0.0
 10
730.2325951665
 20
-244.5552003364
 10
730.852944093
 20
-246.0877007781
 10
732.5599757514
 20
-250.8442369442
 10
734.0302896351
 20
-255.8241140588
 10
735.26059829
 20
-261.0162199296
 10
736.2481621709
 20
-266.408967887
 10
736.9907685682
 20
-271.9903287212
 10
737.4867526815
 20
-277.7478512172
 10
737.7350292294
 20
-283.6686769863
 10
737.7350292294
 20
-289.7396035789
 10
737.4867526815
 20
-295.9470833486
 10
736.9907685682
 20
-302.2772569125
 10
736.2481621709
 20
-308.7160128429
 10
735.26059829
 20
-315.2489777869
 10
734.0302896351
 20
-321.8615677948
 10
732.5599757514
 20
-328.5390331854
 10
730.852944093
 20
-335.2664661526
 10
728.9129878763
 20
-342.0288707242
 10
726.7444376901
 20
-348.811153639
 10
724.3521509584
 20
-355.5981638903
 10
721.7414487211
 20
-362.374780933
 10
718.9181577799
 20
-369.1258690608
 10
715.8885896254
 20
-375.836359533
 10
712.65949829
 20
-382.4912870737
 10
709.2380803482
 20
-389.0758081226
 10
705.6319801845
 20
-395.5752221284
 10
701.8492425788
 20
-401.9750232559
 10
697.8983074373
 20
-408.2609338456
 10
693.7879939882
 20
-414.4189257058
 10
689.527469171
 20
-420.4352626949
 10
685.1262371
 20
-426.2965250557
 10
680.5941285277
 20
-431.9896154977
 10
675.941248161
 20
-437.501850448
 10
671.1779851981
 20
-442.8209174665
 10
666.3149606447
 20
-447.9349543285
 10
661.3630299486
 20
-452.8325475048
 10
656.3332434865
 20
-457.5027671385
 10
651.236822857
 20
-461.9351928992
 10
646.0851424407
 20
-466.1199367948
 10
640.8896951564
 20
-470.0476507728
 10
635.6620759973
 20
-473.7095848946
 10
630.4139477865
 20
-477.0975584342
 10
625.1570228205
 20
-480.2040191455
 10
619.9030308472
 20
-483.0220252455
 10
614.6636948641
 20
-485.5452958879
 10
609.4507079054
 20
-487.7682002293
 10
604.2757005256
 20
-489.6857761998
 10
599.150219644
 20
-491.2937427165
 10
594.0857041788
 20
-492.5885137493
 10
589.0934521195
 20
-493.5672051621
 10
584.7474640302
 20
-494.1676086763
  0
LWPOLYLINE
  5
ED
330
1F
100
AcDbEntity
  8
0
  6
Continuous
 62
     1
370
    25
100
AcDbPolyline
 90
       47
 70
   128
 43
0.0
 10
775.8780667432
 20
-304.1234746886
 10
776.3013159326
 20
-305.1056887296
 10
777.8990871546
 20
-309.2995724851
 10
779.2587866344
 20
-313.7218404519
 10
780.3765632038
 20
-318.3599522356
 10
781.2492453123
 20
-323.200762177
 10
781.8743673695
 20
-328.2305467313
 10
782.2501486708
 20
-333.4350508548
 10
782.3755302767
 20
-338.7995191864
 10
782.2501486708
 20
-344.3087500389
 10
781.8743673695
 20
-349.9471220177
 10
781.2492453123
 20
-355.6986571363
 10
780.3765632038
 20
-361.5470443933
 10
779.2587866344
 20
-367.4757135337
 10
777.8990871546
 20
-373.4678571041
 10
776.3013159326
 20
-379.506488246
 10
774.4700090231
 20
-385.5744908862
 10
772.4103504883
 20
-391.6546638405
 10
770.1281829351
 20
-397.7297725261
 10
767.6299706364
 20
-403.7825976281
 10
764.9227995313
 20
-409.7959837683
 10
762.0143456143
 20
-415.7528760054
 10
758.9128433261
 20
-421.6363958777
 10
755.6270960896
 20
-427.4298657391
 10
752.1664078216
 20
-433.1168665479
 10
748.5405934696
 20
-438.6812743698
 10
744.7599315961
 20
-444.1073120854
 10
740.8351380374
 20
-449.3796010985
 10
736.7773369274
 20
-454.4832023991
 10
732.5980290873
 20
-459.4036469784
 10
728.3090630499
 20
-464.1269829751
 10
723.9225955468
 20
-468.6398228202
 10
719.4510625325
 20
-472.9293782156
 10
714.9071370376
 20
-476.9834844653
 10
710.3037001925
 20
-480.7906597882
 10
705.6538003983
 20
-484.3400984706
 10
700.9706190817
 20
-487.6217453881
 10
696.2674303597
 20
-490.6263010398
 10
691.557566466
 20
-493.3452475912
 10
686.8543777441
 20
-495.7708780531
 10
682.1711964275
 20
-497.8963171907
 10
677.5212966332
 20
-499.7155385357
 10
672.9178597882
 20
-501.2233782607
 10
668.3739342932
 20
-502.4155767168
 10
663.902401279
 20
-503.288743448
 10
659.5159337759
 20
-503.8404111809
 10
657.1201146115
 20
-504.0073680566
  0
LWPOLYLINE
  5
EE
330
1F
100
AcDbEntity
  8
0
  6
Continuous
 62
     1
370
    25
100
AcDbPolyline
 90
       25
 70
   128
 43
0.0
 10
537.4662047742
 20
-382.94392929
 10
537.8306485733
 20
-380.6502036029
 10
538.9423296547
 20
-374.6613128343
 10
540.2948325601
 20
-368.6079117817
 10
541.8844483669
 20
-362.5065933975
 10
543.7068148762
 20
-356.3740844142
 10
545.7569429549
 20
-350.2271905934
 10
548.029211267
 20
-344.0827632654
 10
550.5173873474
 20
-337.9576354519
 10
553.2146592115
 20
-331.8686066599
 10
556.1136300876
 20
-325.8323637931
 10
559.2063500262
 20
-319.8654446523
 10
562.484347511
 20
-313.9842136043
 10
565.9386347263
 20
-308.2047855351
 10
569.5597497047
 20
-302.5430015199
 10
573.3377563268
 20
-297.014380153
 10
577.2623075411
 20
-291.634074968
 10
581.3226506329
 20
-286.4168348943
 10
585.5076430292
 20
-281.3769586304
 10
589.8058234214
 20
-276.5282596698
 10
594.2054091311
 20
-271.8840313192
 10
598.6943408912
 20
-267.456996512
 10
603.2603144563
 20
-263.2592956443
 10
607.8908148464
 20
-259.3024363872
 10
609.6804200836
 20
-257.8516852219
  0
LWPOLYLINE
  5
EF
330
1F
100
AcDbEntity
  8
0
  6
Continuous
 62
     1
370
    25
100
AcDbPolyline
 90
       54
 70
   128
 43
0.0
 10
768.0091421249
 20
-291.1726419516
 10
768.0212277337
 20
-291.1866903562
 10
770.5173274216
 20
-294.352466948
 10
772.7975667564
 20
-297.7897389556
 10
774.8554867337
 20
-301.4887566387
 10
776.685250015
 20
-305.4390372291
 10
778.2816725378
 20
-309.6293801429
 10
779.640223516
 20
-314.0479156501
 10
780.7570570496
 20
-318.6821109613
 10
781.6290015883
 20
-323.5188356268
 10
782.2535968098
 20
-328.544373707
 10
782.6290620098
 20
-333.744483466
 10
782.7543329803
 20
-339.1044258923
 10
782.6290620098
 20
-344.6090031025
 10
782.2535968098
 20
-350.242615754
 10
781.6290015883
 20
-355.9892961269
 10
780.7570570496
 20
-361.8327465281
 10
779.640223516
 20
-367.7564103902
 10
778.2816725378
 20
-373.7434954692
 10
776.685250015
 20
-379.7770285944
 10
774.8554867337
 20
-385.8399089014
 10
772.7975667564
 20
-391.9149504152
 10
770.5173274216
 20
-397.9849307201
 10
768.0212277337
 20
-404.0326426678
 10
765.316343095
 20
-410.0409491305
 10
762.4103389636
 20
-415.9928195005
 10
759.3114603167
 20
-421.8713692335
 10
756.0284842355
 20
-427.6599480576
 10
752.5707199052
 20
-433.3421460571
 10
748.947966468
 20
-438.9018545056
 10
745.1704972183
 20
-444.3233114923
 10
741.2490121873
 20
-449.5911597126
 10
737.1946355087
 20
-454.690447989
 10
733.0188574671
 20
-459.6067377303
 10
728.7335107903
 20
-464.3260861992
 10
724.3507469415
 20
-468.8351210355
 10
719.8829887044
 20
-473.1210493772
 10
715.3428998898
 20
-477.1717361852
 10
710.7433497744
 20
-480.9756943544
 10
706.0973749054
 20
-484.5221371813
 10
701.41814749
 20
-487.8010148638
 10
696.7189292976
 20
-490.8030350295
 10
692.0130413663
 20
-493.5196863067
 10
687.3138231739
 20
-495.9432679788
 10
682.6345957585
 20
-498.0669112741
 10
677.9886208895
 20
-499.8845968523
 10
673.3890707741
 20
-501.3911662086
 10
668.8489819595
 20
-502.5823543695
 10
664.3812237224
 20
-503.4547898895
 10
659.9984598736
 20
-504.005986483
 10
655.7131131968
 20
-504.2343939712
 10
651.5373351552
 20
-504.1393549335
 10
647.4829584766
 20
-503.7211503305
 10
645.4986637753
 20
-503.3900106877
  0
ENDSEC
  0
SECTION
  2
OBJECTS
  0
DICTIONARY
  5
C
330
0
100
AcDbDictionary
281
     1
  3
ACAD_GROUP
350
D
  3
ACAD_LAYOUT
350
1A
  3
ACAD_MLINESTYLE
350
17
  3
ACAD_PLOTSETTINGS
350
19
  3
ACAD_PLOTSTYLENAME
350
E
  3
ACAD_SCALELIST
350
47
  0
DICTIONARY
  5
D
102
{ACAD_REACTORS
330
C
102
}
330
C
100
AcDbDictionary
281
     1
  0
DICTIONARY
  5
1A
102
{ACAD_REACTORS
330
C
102
}
330
C
100
AcDbDictionary
281
     1
  3
Layout1
350
1E
  3
Layout2
350
26
  3
Model
350
22
  0
DICTIONARY
  5
17
102
{ACAD_REACTORS
330
C
102
}
330
C
100
AcDbDictionary
281
     1
  3
Standard
350
18
  0
DICTIONARY
  5
19
102
{ACAD_REACTORS
330
C
102
}
330
C
100
AcDbDictionary
281
     1
  0
ACDBDICTIONARYWDFLT
  5
E
102
{ACAD_REACTORS
330
C
102
}
330
C
100
AcDbDictionary
281
     1
  3
Normal
350
F
100
AcDbDictionaryWithDefault
340
F
  0
DICTIONARY
  5
47
102
{ACAD_REACTORS
330
C
102
}
330
C
100
AcDbDictionary
281
     1
  3
A0
350
48
  3
A1
350
49
  3
A2
350
4A
  3
A3
350
4B
  3
A4
350
4C
  3
A5
350
4D
  3
A6
350
4E
  3
A7
350
4F
  3
A8
350
50
  3
A9
350
51
  3
B0
350
52
  3
B1
350
53
  3
B2
350
54
  3
B3
350
55
  3
B4
350
56
  3
B5
350
57
  3
B6
350
58
  3
B7
350
59
  3
B8
350
5A
  3
B9
350
5B
  3
C0
350
5C
  3
C1
350
5D
  3
C2
350
5E
  3
C3
350
5F
  3
C4
350
60
  3
C5
350
61
  3
C6
350
62
  3
C7
350
63
  3
C8
350
64
  3
C9
350
65
  3
D0
350
66
  3
D1
350
67
  3
D2
350
68
  0
LAYOUT
  5
1E
102
{ACAD_REACTORS
330
1A
102
}
330
1A
100
AcDbPlotSettings
  1

  2
none_device
  4

  6

 40
0.0
 41
0.0
 42
0.0
 43
0.0
 44
0.0
 45
0.0
 46
0.0
 47
0.0
 48
0.0
 49
0.0
140
0.0
141
0.0
142
1.0
143
1.0
 70
   688
 72
     1
 73
     0
 74
     5
  7

 75
    16
147
1.0
148
0.0
149
0.0
100
AcDbLayout
  1
Layout1
 70
     1
 71
     1
 10
0.0
 20
0.0
 11
420.0
 21
297.0
 12
0.0
 22
0.0
 32
0.0
 14
1.0000000000E+20
 24
1.0000000000E+20
 34
1.0000000000E+20
 15
-1.0000000000E+20
 25
-1.0000000000E+20
 35
-1.0000000000E+20
146
0.0
 13
0.0
 23
0.0
 33
0.0
 16
1.0
 26
0.0
 36
0.0
 17
0.0
 27
1.0
 37
0.0
 76
     0
330
1B
  0
LAYOUT
  5
26
102
{ACAD_REACTORS
330
1A
102
}
330
1A
100
AcDbPlotSettings
  1

  2
none_device
  4

  6

 40
0.0
 41
0.0
 42
0.0
 43
0.0
 44
0.0
 45
0.0
 46
0.0
 47
0.0
 48
0.0
 49
0.0
140
0.0
141
0.0
142
1.0
143
1.0
 70
   688
 72
     1
 73
     0
 74
     5
  7

 75
    16
147
1.0
148
0.0
149
0.0
100
AcDbLayout
  1
Layout2
 70
     1
 71
     2
 10
0.0
 20
0.0
 11
0.0
 21
0.0
 12
0.0
 22
0.0
 32
0.0
 14
0.0
 24
0.0
 34
0.0
 15
0.0
 25
0.0
 35
0.0
146
0.0
 13
0.0
 23
0.0
 33
0.0
 16
1.0
 26
0.0
 36
0.0
 17
0.0
 27
1.0
 37
0.0
 76
     0
330
23
  0
LAYOUT
  5
22
102
{ACAD_REACTORS
330
1A
102
}
330
1A
100
AcDbPlotSettings
  1

  2
none_device
  4
Letter_(8.50_x_11.00_Inches)
  6

 40
6.35
 41
6.35
 42
6.35000508
 43
6.35000508
 44
215.9
 45
279.4
 46
0.0
 47
0.0
 48
0.0
 49
0.0
140
0.0
141
0.0
142
1.0
143
1.0
 70
  1712
 72
     1
 73
     0
 74
     0
  7

 75
     0
147
1.0
148
0.0
149
0.0
100
AcDbLayout
  1
Model
 70
     1
 71
     0
 10
0.0
 20
0.0
 11
279.4
 21
215.9
 12
0.0
 22
0.0
 32
0.0
 14
0.0
 24
0.0
 34
0.0
 15
279.4
 25
215.9
 35
0.0
146
0.0
 13
0.0
 23
0.0
 33
0.0
 16
1.0
 26
0.0
 36
0.0
 17
0.0
 27
1.0
 37
0.0
 76
     0
330
1F
331
29
  0
MLINESTYLE
  5
18
102
{ACAD_REACTORS
330
17
102
}
330
17
100
AcDbMlineStyle
  2
Standard
 70
     0
  3

 62
   256
 51
90.0
 52
90.0
 71
     2
 49
0.5
 62
   256
  6
BYLAYER
 49
-0.5
 62
   256
  6
BYLAYER
  0
ACDBPLACEHOLDER
  5
F
102
{ACAD_REACTORS
330
E
102
}
330
E
  0
SCALE
  5
48
102
{ACAD_REACTORS
330
47
102
}
330
47
100
AcDbScale
 70
     0
300
1:1
140
1.0
141
1.0
290
     1
  0
SCALE
  5
49
102
{ACAD_REACTORS
330
47
102
}
330
47
100
AcDbScale
 70
     0
300
1:2
140
1.0
141
2.0
290
     0
  0
SCALE
  5
4A
102
{ACAD_REACTORS
330
47
102
}
330
47
100
AcDbScale
 70
     0
300
1:4
140
1.0
141
4.0
290
     0
  0
SCALE
  5
4B
102
{ACAD_REACTORS
330
47
102
}
330
47
100
AcDbScale
 70
     0
300
1:5
140
1.0
141
5.0
290
     0
  0
SCALE
  5
4C
102
{ACAD_REACTORS
330
47
102
}
330
47
100
AcDbScale
 70
     0
300
1:8
140
1.0
141
8.0
290
     0
  0
SCALE
  5
4D
102
{ACAD_REACTORS
330
47
102
}
330
47
100
AcDbScale
 70
     0
300
1:10
140
1.0
141
10.0
290
     0
  0
SCALE
  5
4E
102
{ACAD_REACTORS
330
47
102
}
330
47
100
AcDbScale
 70
     0
300
1:16
140
1.0
141
16.0
290
     0
  0
SCALE
  5
4F
102
{ACAD_REACTORS
330
47
102
}
330
47
100
AcDbScale
 70
     0
300
1:20
140
1.0
141
20.0
290
     0
  0
SCALE
  5
50
102
{ACAD_REACTORS
330
47
102
}
330
47
100
AcDbScale
 70
     0
300
1:30
140
1.0
141
30.0
290
     0
  0
SCALE
  5
51
102
{ACAD_REACTORS
330
47
102
}
330
47
100
AcDbScale
 70
     0
300
1:40
140
1.0
141
40.0
290
     0
  0
SCALE
  5
52
102
{ACAD_REACTORS
330
47
102
}
330
47
100
AcDbScale
 70
     0
300
1:50
140
1.0
141
50.0
290
     0
  0
SCALE
  5
53
102
{ACAD_REACTORS
330
47
102
}
330
47
100
AcDbScale
 70
     0
300
1:100
140
1.0
141
100.0
290
     0
  0
SCALE
  5
54
102
{ACAD_REACTORS
330
47
102
}
330
47
100
AcDbScale
 70
     0
300
2:1
140
2.0
141
1.0
290
     0
  0
SCALE
  5
55
102
{ACAD_REACTORS
330
47
102
}
330
47
100
AcDbScale
 70
     0
300
4:1
140
4.0
141
1.0
290
     0
  0
SCALE
  5
56
102
{ACAD_REACTORS
330
47
102
}
330
47
100
AcDbScale
 70
     0
300
8:1
140
8.0
141
1.0
290
     0
  0
SCALE
  5
57
102
{ACAD_REACTORS
330
47
102
}
330
47
100
AcDbScale
 70
     0
300
10:1
140
10.0
141
1.0
290
     0
  0
SCALE
  5
58
102
{ACAD_REACTORS
330
47
102
}
330
47
100
AcDbScale
 70
     0
300
100:1
140
100.0
141
1.0
290
     0
  0
SCALE
  5
59
102
{ACAD_REACTORS
330
47
102
}
330
47
100
AcDbScale
 70
     0
300
1/128" = 1'-0"
140
0.0078125
141
12.0
290
     0
  0
SCALE
  5
5A
102
{ACAD_REACTORS
330
47
102
}
330
47
100
AcDbScale
 70
     0
300
1/64" = 1'-0"
140
0.015625
141
12.0
290
     0
  0
SCALE
  5
5B
102
{ACAD_REACTORS
330
47
102
}
330
47
100
AcDbScale
 70
     0
300
1/32" = 1'-0"
140
0.03125
141
12.0
290
     0
  0
SCALE
  5
5C
102
{ACAD_REACTORS
330
47
102
}
330
47
100
AcDbScale
 70
     0
300
1/16" = 1'-0"
140
0.0625
141
12.0
290
     0
  0
SCALE
  5
5D
102
{ACAD_REACTORS
330
47
102
}
330
47
100
AcDbScale
 70
     0
300
3/32" = 1'-0"
140
0.09375
141
12.0
290
     0
  0
SCALE
  5
5E
102
{ACAD_REACTORS
330
47
102
}
330
47
100
AcDbScale
 70
     0
300
1/8" = 1'-0"
140
0.125
141
12.0
290
     0
  0
SCALE
  5
5F
102
{ACAD_REACTORS
330
47
102
}
330
47
100
AcDbScale
 70
     0
300
3/16" = 1'-0"
140
0.1875
141
12.0
290
     0
  0
SCALE
  5
60
102
{ACAD_REACTORS
330
47
102
}
330
47
100
AcDbScale
 70
     0
300
1/4" = 1'-0"
140
0.25
141
12.0
290
     0
  0
SCALE
  5
61
102
{ACAD_REACTORS
330
47
102
}
330
47
100
AcDbScale
 70
     0
300
3/8" = 1'-0"
140
0.375
141
12.0
290
     0
  0
SCALE
  5
62
102
{ACAD_REACTORS
330
47
102
}
330
47
100
AcDbScale
 70
     0
300
1/2" = 1'-0"
140
0.5
141
12.0
290
     0
  0
SCALE
  5
63
102
{ACAD_REACTORS
330
47
102
}
330
47
100
AcDbScale
 70
     0
300
3/4" = 1'-0"
140
0.75
141
12.0
290
     0
  0
SCALE
  5
64
102
{ACAD_REACTORS
330
47
102
}
330
47
100
AcDbScale
 70
     0
300
1" = 1'-0"
140
1.0
141
12.0
290
     0
  0
SCALE
  5
65
102
{ACAD_REACTORS
330
47
102
}
330
47
100
AcDbScale
 70
     0
300
1-1/2" = 1'-0"
140
1.5
141
12.0
290
     0
  0
SCALE
  5
66
102
{ACAD_REACTORS
330
47
102
}
330
47
100
AcDbScale
 70
     0
300
3" = 1'-0"
140
3.0
141
12.0
290
     0
  0
SCALE
  5
67
102
{ACAD_REACTORS
330
47
102
}
330
47
100
AcDbScale
 70
     0
300
6" = 1'-0"
140
6.0
141
12.0
290
     0
  0
SCALE
  5
68
102
{ACAD_REACTORS
330
47
102
}
330
47
100
AcDbScale
 70
     0
300
1'-0" = 1'-0"
140
12.0
141
12.0
290
     0
  0
ENDSEC
  0
EOF
